  0
SECTION
  2
HEADER
  9
$ACADVER
  1
AC1014
  9
$HANDSEED
  5
FFFF
  9
$MEASUREMENT
 70
     1
  0
ENDSEC
  0
SECTION
  2
TABLES
  0
TABLE
  2
VPORT
  5
8
330
0
100
AcDbSymbolTable
 70
     4
  0
VPORT
  5
2E
330
8
100
AcDbSymbolTableRecord
100
AcDbViewportTableRecord
  2
*ACTIVE
 70
     0
 10
0.0
 20
0.0
 11
1.0
 21
1.0
 12
210.0
 22
148.5
 13
0.0
 23
0.0
 14
10.0
 24
10.0
 15
10.0
 25
10.0
 16
0.0
 26
0.0
 36
1.0
 17
0.0
 27
0.0
 37
0.0
 40
341.0
 41
1.24
 42
50.0
 43
0.0
 44
0.0
 50
0.0
 51
0.0
 71
     0
 72
   100
 73
     1
 74
     3
 75
     0
 76
     0
 77
     0
 78
     0
  0
ENDTAB
  0
TABLE
  2
LTYPE
  5
5
330
0
100
AcDbSymbolTable
 70
     1
  0
LTYPE
  5
14
330
5
100
AcDbSymbolTableRecord
100
AcDbLinetypeTableRecord
  2
BYBLOCK
 70
     0
  3

 72
    65
 73
     0
 40
0.0
  0
LTYPE
  5
15
330
5
100
AcDbSymbolTableRecord
100
AcDbLinetypeTableRecord
  2
BYLAYER
 70
     0
  3

 72
    65
 73
     0
 40
0.0
  0
LTYPE
  5
16
330
5
100
AcDbSymbolTableRecord
100
AcDbLinetypeTableRecord
  2
CONTINUOUS
 70
     0
  3
Solid line
 72
    65
 73
     0
 40
0.0
  0
ENDTAB
  0
TABLE
  2
LAYER
  5
2
100
AcDbSymbolTable
 70
2
  0
LAYER
  5
50
100
AcDbSymbolTableRecord
100
AcDbLayerTableRecord
  2
0
 70
0
  6
CONTINUOUS
  0
LAYER
  5
51
100
AcDbSymbolTableRecord
100
AcDbLayerTableRecord
  2
COVID_face_mask_back_strap_v1
 70
0
  6
CONTINUOUS
  0
ENDTAB
  0
TABLE
  2
STYLE
  5
3
330
0
100
AcDbSymbolTable
 70
     1
  0
STYLE
  5
11
330
3
100
AcDbSymbolTableRecord
100
AcDbTextStyleTableRecord
  2
STANDARD
 70
     0
 40
0.0
 41
1.0
 50
0.0
 71
     0
 42
2.5
  3
txt
  4

  0
ENDTAB
  0
TABLE
  2
VIEW
  5
6
330
0
100
AcDbSymbolTable
 70
     0
  0
ENDTAB
  0
TABLE
  2
UCS
  5
7
330
0
100
AcDbSymbolTable
 70
     0
  0
ENDTAB
  0
TABLE
  2
APPID
  5
9
330
0
100
AcDbSymbolTable
 70
     2
  0
APPID
  5
12
330
9
100
AcDbSymbolTableRecord
100
AcDbRegAppTableRecord
  2
ACAD
 70
     0
  0
ENDTAB
  0
TABLE
  2
DIMSTYLE
  5
A
330
0
100
AcDbSymbolTable
 70
     1
  0
DIMSTYLE
105
27
330
A
100
AcDbSymbolTableRecord
100
AcDbDimStyleTableRecord
  2
ISO-25
 70
     0
  3

  4

  5

  6

  7

 40
1.0
 41
2.5
 42
0.625
 43
3.75
 44
1.25
 45
0.0
 46
0.0
 47
0.0
 48
0.0
140
2.5
141
2.5
142
0.0
143
0.03937007874016
144
1.0
145
0.0
146
1.0
147
0.625
 71
     0
 72
     0
 73
     0
 74
     0
 75
     0
 76
     0
 77
     1
 78
     8
170
     0
171
     3
172
     1
173
     0
174
     0
175
     0
176
     0
177
     0
178
     0
270
     2
271
     2
272
     2
273
     2
274
     3
340
11
275
     0
280
     0
281
     0
282
     0
283
     0
284
     8
285
     0
286
     0
287
     3
288
     0
  0
ENDTAB
  0
TABLE
  2
BLOCK_RECORD
  5
1
330
0
100
AcDbSymbolTable
 70
     1
  0
BLOCK_RECORD
  5
1F
330
1
100
AcDbSymbolTableRecord
100
AcDbBlockTableRecord
  2
*MODEL_SPACE
  0
BLOCK_RECORD
  5
1B
330
1
100
AcDbSymbolTableRecord
100
AcDbBlockTableRecord
  2
*PAPER_SPACE
  0
ENDTAB
  0
ENDSEC
  0
SECTION
  2
BLOCKS
  0
BLOCK
  5
20
330
1F
100
AcDbEntity
  8
0
100
AcDbBlockBegin
  2
*MODEL_SPACE
 70
     0
 10
0.0
 20
0.0
 30
0.0
  3
*MODEL_SPACE
  1

  0
ENDBLK
  5
21
330
1F
100
AcDbEntity
  8
0
100
AcDbBlockEnd
  0
BLOCK
  5
1C
330
1B
100
AcDbEntity
 67
     1
  8
0
100
AcDbBlockBegin
  2
*PAPER_SPACE
  1

  0
ENDBLK
  5
1D
330
1B
100
AcDbEntity
 67
     1
  8
0
100
AcDbBlockEnd
  0
ENDSEC
  0
SECTION
  2
ENTITIES
  0
SPLINE
  5
100
100
AcDbEntity
  8
COVID_face_mask_back_strap_v1
 62
1
100
AcDbSpline
 70
0
 71
3
 72
22
 73
18
 74
16
 40
0.000000
 40
0.000000
 40
0.000000
 40
0.000000
 40
0.081863
 40
0.164234
 40
0.247082
 40
1.774399
 40
3.256363
 40
4.783610
 40
6.310874
 40
7.792832
 40
9.320146
 40
10.847446
 40
12.329410
 40
13.856675
 40
14.028509
 40
14.198263
 40
14.366221
 40
14.366221
 40
14.366221
 40
14.366221
 10
3.469993
 20
504.007072
 30
0.0
 10
3.467934
 20
504.034283
 30
0.0
 10
3.463804
 20
504.088874
 30
0.0
 10
3.460493
 20
504.171193
 30
0.0
 10
3.452231
 20
504.735132
 30
0.0
 10
3.734176
 20
505.785893
 30
0.0
 10
4.851224
 20
506.899681
 30
0.0
 10
6.380689
 20
507.314382
 30
0.0
 10
7.910196
 20
506.900318
 30
0.0
 10
9.027128
 20
505.783421
 30
0.0
 10
9.441195
 20
504.253871
 30
0.0
 10
9.026526
 20
502.724378
 30
0.0
 10
7.912534
 20
501.607317
 30
0.0
 10
6.832019
 20
501.317384
 30
0.0
 10
6.209576
 20
501.336317
 30
0.0
 10
6.040146
 20
501.350528
 30
0.0
 10
5.928924
 20
501.368071
 30
0.0
 10
5.873609
 20
501.376796
 30
0.0
 11
3.469993
 21
504.007072
 31
0.0
 11
3.464296
 21
504.088736
 31
0.0
 11
3.460849
 21
504.171035
 31
0.0
 11
3.459692
 21
504.253875
 31
0.0
 11
3.858503
 21
505.728204
 31
0.0
 11
4.906425
 21
506.776095
 31
0.0
 11
6.380692
 21
507.174875
 31
0.0
 11
7.854973
 21
506.776095
 31
0.0
 11
8.902888
 21
505.728204
 31
0.0
 11
9.301691
 21
504.253875
 31
0.0
 11
8.902888
 21
502.779562
 31
0.0
 11
7.854973
 21
501.731663
 31
0.0
 11
6.380692
 21
501.332876
 31
0.0
 11
6.208931
 21
501.337873
 31
0.0
 11
6.039819
 21
501.352631
 31
0.0
 11
5.873609
 21
501.376796
 31
0.0
  0
LWPOLYLINE
  5
101
100
AcDbEntity
  8
COVID_face_mask_back_strap_v1
 62
1
100
AcDbPolyline
 90
2
 70
0
 10
5.873609
 20
501.376796
 30
0.0
 10
5.663706
 20
499.787991
 30
0.0
  0
LWPOLYLINE
  5
102
100
AcDbEntity
  8
COVID_face_mask_back_strap_v1
 62
1
100
AcDbPolyline
 90
2
 70
0
 10
4.039905
 20
487.497390
 30
0.0
 10
3.886800
 20
486.338480
 30
0.0
  0
SPLINE
  5
103
100
AcDbEntity
  8
COVID_face_mask_back_strap_v1
 62
1
100
AcDbSpline
 70
0
 71
3
 72
19
 73
15
 74
13
 40
0.000000
 40
0.000000
 40
0.000000
 40
0.000000
 40
1.419871
 40
2.811402
 40
4.248098
 40
5.775400
 40
7.257369
 40
8.784619
 40
10.311884
 40
11.793848
 40
13.321148
 40
13.723631
 40
14.116621
 40
14.503097
 40
14.503097
 40
14.503097
 40
14.503097
 10
3.886800
 20
486.338480
 30
0.0
 10
4.355207
 20
486.221082
 30
0.0
 10
5.282673
 20
485.988629
 30
0.0
 10
6.268356
 20
484.860016
 30
0.0
 10
6.641285
 20
483.404951
 30
0.0
 10
6.235924
 20
481.902138
 30
0.0
 10
5.118881
 20
480.786257
 30
0.0
 10
3.589392
 20
480.371935
 30
0.0
 10
2.059969
 20
480.786564
 30
0.0
 10
0.942730
 20
481.900914
 30
0.0
 10
0.632230
 20
483.058644
 30
0.0
 10
0.687070
 20
483.831737
 30
0.0
 10
0.764317
 20
484.220059
 30
0.0
 10
0.857624
 20
484.462946
 30
0.0
 10
0.903887
 20
484.583375
 30
0.0
 11
3.886800
 21
486.338480
 31
0.0
 11
5.221844
 21
485.855063
 31
0.0
 11
6.157638
 21
484.825186
 31
0.0
 11
6.510408
 21
483.432473
 31
0.0
 11
6.111597
 21
481.958160
 31
0.0
 11
5.063674
 21
480.910261
 31
0.0
 11
3.589408
 21
480.511473
 31
0.0
 11
2.115126
 21
480.910261
 31
0.0
 11
1.067212
 21
481.958160
 31
0.0
 11
0.668408
 21
483.432473
 31
0.0
 11
0.695795
 21
483.834023
 31
0.0
 11
0.775511
 21
484.218843
 31
0.0
 11
0.903887
 21
484.583375
 31
0.0
  0
SPLINE
  5
104
100
AcDbEntity
  8
COVID_face_mask_back_strap_v1
 62
1
100
AcDbSpline
 70
0
 71
3
 72
22
 73
18
 74
16
 40
0.000000
 40
0.000000
 40
0.000000
 40
0.000000
 40
0.081863
 40
0.164234
 40
0.247082
 40
1.774399
 40
3.256363
 40
4.783610
 40
6.310874
 40
7.792832
 40
9.320146
 40
10.847446
 40
12.329410
 40
13.856675
 40
14.028509
 40
14.198263
 40
14.366221
 40
14.366221
 40
14.366221
 40
14.366221
 10
15.296197
 20
502.358577
 30
0.0
 10
15.294138
 20
502.385788
 30
0.0
 10
15.290008
 20
502.440379
 30
0.0
 10
15.286697
 20
502.522698
 30
0.0
 10
15.278435
 20
503.086637
 30
0.0
 10
15.560380
 20
504.137398
 30
0.0
 10
16.677428
 20
505.251185
 30
0.0
 10
18.206894
 20
505.665887
 30
0.0
 10
19.736401
 20
505.251823
 30
0.0
 10
20.853333
 20
504.134926
 30
0.0
 10
21.267399
 20
502.605375
 30
0.0
 10
20.852730
 20
501.075882
 30
0.0
 10
19.738738
 20
499.958822
 30
0.0
 10
18.658223
 20
499.668888
 30
0.0
 10
18.035780
 20
499.687822
 30
0.0
 10
17.866350
 20
499.702033
 30
0.0
 10
17.755128
 20
499.719576
 30
0.0
 10
17.699813
 20
499.728301
 30
0.0
 11
15.296197
 21
502.358577
 31
0.0
 11
15.290500
 21
502.440241
 31
0.0
 11
15.287054
 21
502.522540
 31
0.0
 11
15.285896
 21
502.605380
 31
0.0
 11
15.684707
 21
504.079709
 31
0.0
 11
16.732630
 21
505.127600
 31
0.0
 11
18.206896
 21
505.526380
 31
0.0
 11
19.681178
 21
505.127600
 31
0.0
 11
20.729092
 21
504.079709
 31
0.0
 11
21.127896
 21
502.605380
 31
0.0
 11
20.729092
 21
501.131067
 31
0.0
 11
19.681178
 21
500.083168
 31
0.0
 11
18.206896
 21
499.684380
 31
0.0
 11
18.035135
 21
499.689378
 31
0.0
 11
17.866024
 21
499.704136
 31
0.0
 11
17.699813
 21
499.728301
 31
0.0
  0
LWPOLYLINE
  5
105
100
AcDbEntity
  8
COVID_face_mask_back_strap_v1
 62
1
100
AcDbPolyline
 90
2
 70
0
 10
3.469993
 20
504.007072
 30
0.0
 10
0.903887
 20
484.583375
 30
0.0
  0
LWPOLYLINE
  5
106
100
AcDbEntity
  8
COVID_face_mask_back_strap_v1
 62
1
100
AcDbPolyline
 90
2
 70
0
 10
17.699813
 20
499.728301
 30
0.0
 10
17.501693
 20
498.229101
 30
0.0
  0
LWPOLYLINE
  5
107
100
AcDbEntity
  8
COVID_face_mask_back_strap_v1
 62
1
100
AcDbPolyline
 90
2
 70
0
 10
15.877998
 20
485.938571
 30
0.0
 10
15.713004
 20
484.689985
 30
0.0
  0
LWPOLYLINE
  5
108
100
AcDbEntity
  8
COVID_face_mask_back_strap_v1
 62
1
100
AcDbPolyline
 90
2
 70
0
 10
15.296197
 20
502.358577
 30
0.0
 10
14.802097
 20
498.618603
 30
0.0
  0
SPLINE
  5
109
100
AcDbEntity
  8
COVID_face_mask_back_strap_v1
 62
1
100
AcDbSpline
 70
0
 71
3
 72
19
 73
15
 74
13
 40
0.000000
 40
0.000000
 40
0.000000
 40
0.000000
 40
1.419877
 40
2.811402
 40
4.248090
 40
5.775392
 40
7.257361
 40
8.784611
 40
10.311876
 40
11.793840
 40
13.321140
 40
13.723607
 40
14.116605
 40
14.503088
 40
14.503088
 40
14.503088
 40
14.503088
 10
15.713004
 20
484.689985
 30
0.0
 10
16.181411
 20
484.572580
 30
0.0
 10
17.108871
 20
484.340115
 30
0.0
 10
18.094561
 20
483.211515
 30
0.0
 10
18.467490
 20
481.756452
 30
0.0
 10
18.062128
 20
480.253643
 30
0.0
 10
16.945085
 20
479.137761
 30
0.0
 10
15.415597
 20
478.723440
 30
0.0
 10
13.886173
 20
479.138069
 30
0.0
 10
12.768935
 20
480.252418
 30
0.0
 10
12.458433
 20
481.410144
 30
0.0
 10
12.513276
 20
482.183233
 30
0.0
 10
12.590521
 20
482.571556
 30
0.0
 10
12.683828
 20
482.814448
 30
0.0
 10
12.730092
 20
482.934880
 30
0.0
 11
15.713004
 21
484.689985
 31
0.0
 11
17.048048
 21
484.206552
 31
0.0
 11
17.983842
 21
483.176683
 31
0.0
 11
18.336612
 21
481.783978
 31
0.0
 11
17.937801
 21
480.309665
 31
0.0
 11
16.889879
 21
479.261766
 31
0.0
 11
15.415612
 21
478.862978
 31
0.0
 11
13.941331
 21
479.261766
 31
0.0
 11
12.893416
 21
480.309665
 31
0.0
 11
12.494612
 21
481.783978
 31
0.0
 11
12.522000
 21
482.185512
 31
0.0
 11
12.601716
 21
482.570340
 31
0.0
 11
12.730092
 21
482.934880
 31
0.0
  0
SPLINE
  5
10a
100
AcDbEntity
  8
COVID_face_mask_back_strap_v1
 62
1
100
AcDbSpline
 70
0
 71
3
 72
22
 73
18
 74
16
 40
0.000000
 40
0.000000
 40
0.000000
 40
0.000000
 40
0.081808
 40
0.164130
 40
0.246974
 40
1.774276
 40
3.256245
 40
4.783495
 40
6.310760
 40
7.792724
 40
9.320024
 40
10.847338
 40
12.329297
 40
13.856560
 40
14.028386
 40
14.198131
 40
14.366101
 40
14.366101
 40
14.366101
 40
14.366101
 10
27.204987
 20
500.802404
 30
0.0
 10
27.202950
 20
500.829598
 30
0.0
 10
27.198864
 20
500.884157
 30
0.0
 10
27.195505
 20
500.966438
 30
0.0
 10
27.187115
 20
501.530355
 30
0.0
 10
27.469225
 20
502.581107
 30
0.0
 10
28.586202
 20
503.694897
 30
0.0
 10
30.115687
 20
504.109613
 30
0.0
 10
31.645191
 20
503.695534
 30
0.0
 10
32.762117
 20
502.578635
 30
0.0
 10
33.176189
 20
501.049087
 30
0.0
 10
32.761525
 20
499.519592
 30
0.0
 10
31.647526
 20
498.402533
 30
0.0
 10
30.567015
 20
498.112611
 30
0.0
 10
29.944578
 20
498.131542
 30
0.0
 10
29.775150
 20
498.145749
 30
0.0
 10
29.663924
 20
498.163271
 30
0.0
 10
29.608603
 20
498.171987
 30
0.0
 11
27.204987
 21
500.802404
 31
0.0
 11
27.199337
 21
500.884017
 31
0.0
 11
27.195867
 21
500.966265
 31
0.0
 11
27.194686
 21
501.049101
 31
0.0
 11
27.593497
 21
502.523414
 31
0.0
 11
28.641420
 21
503.571313
 31
0.0
 11
30.115686
 21
503.970101
 31
0.0
 11
31.589967
 21
503.571313
 31
0.0
 11
32.637882
 21
502.523414
 31
0.0
 11
33.036686
 21
501.049101
 31
0.0
 11
32.637882
 21
499.574772
 31
0.0
 11
31.589967
 21
498.526881
 31
0.0
 11
30.115686
 21
498.128101
 31
0.0
 11
29.943933
 21
498.133098
 31
0.0
 11
29.774829
 21
498.147846
 31
0.0
 11
29.608603
 21
498.171987
 31
0.0
  0
LWPOLYLINE
  5
10b
100
AcDbEntity
  8
COVID_face_mask_back_strap_v1
 62
1
100
AcDbPolyline
 90
2
 70
0
 10
13.178402
 20
486.328073
 30
0.0
 10
12.730092
 20
482.934880
 30
0.0
  0
LWPOLYLINE
  5
10c
100
AcDbEntity
  8
COVID_face_mask_back_strap_v1
 62
1
100
AcDbPolyline
 90
2
 70
0
 10
29.608603
 20
498.171987
 30
0.0
 10
29.409001
 20
496.661286
 30
0.0
  0
LWPOLYLINE
  5
10d
100
AcDbEntity
  8
COVID_face_mask_back_strap_v1
 62
1
100
AcDbPolyline
 90
2
 70
0
 10
27.785306
 20
484.370791
 30
0.0
 10
27.621900
 20
483.133705
 30
0.0
  0
LWPOLYLINE
  5
10e
100
AcDbEntity
  8
COVID_face_mask_back_strap_v1
 62
1
100
AcDbPolyline
 90
2
 70
0
 10
27.204987
 20
500.802404
 30
0.0
 10
26.709405
 20
497.050894
 30
0.0
  0
SPLINE
  5
10f
100
AcDbEntity
  8
COVID_face_mask_back_strap_v1
 62
1
100
AcDbSpline
 70
0
 71
3
 72
19
 73
15
 74
13
 40
0.000000
 40
0.000000
 40
0.000000
 40
0.000000
 40
1.419854
 40
2.811350
 40
4.248017
 40
5.775333
 40
7.257297
 40
8.784545
 40
10.311808
 40
11.793767
 40
13.321081
 40
13.723519
 40
14.116528
 40
14.502918
 40
14.502918
 40
14.502918
 40
14.502918
 10
27.621900
 20
483.133705
 30
0.0
 10
28.090299
 20
483.016300
 30
0.0
 10
29.017744
 20
482.783833
 30
0.0
 10
30.003375
 20
481.655210
 30
0.0
 10
30.376272
 20
480.200162
 30
0.0
 10
29.970925
 20
478.697352
 30
0.0
 10
28.853872
 20
477.581472
 30
0.0
 10
27.324386
 20
477.167166
 30
0.0
 10
25.794966
 20
477.581780
 30
0.0
 10
24.677713
 20
478.696127
 30
0.0
 10
24.367239
 20
479.853853
 30
0.0
 10
24.422052
 20
480.626936
 30
0.0
 10
24.499214
 20
481.015241
 30
0.0
 10
24.592543
 20
481.258098
 30
0.0
 10
24.638811
 20
481.378495
 30
0.0
 11
27.621900
 21
483.133705
 31
0.0
 11
28.956916
 21
482.650265
 31
0.0
 11
29.892660
 21
481.620388
 31
0.0
 11
30.245402
 21
480.227699
 31
0.0
 11
29.846591
 21
478.753370
 31
0.0
 11
28.798668
 21
477.705479
 31
0.0
 11
27.324402
 21
477.306699
 31
0.0
 11
25.850120
 21
477.705479
 31
0.0
 11
24.802206
 21
478.753370
 31
0.0
 11
24.403402
 21
480.227699
 31
0.0
 11
24.430763
 21
480.629205
 31
0.0
 11
24.510438
 21
481.014053
 31
0.0
 11
24.638811
 21
481.378495
 31
0.0
  0
SPLINE
  5
110
100
AcDbEntity
  8
COVID_face_mask_back_strap_v1
 62
1
100
AcDbSpline
 70
0
 71
3
 72
22
 73
18
 74
16
 40
0.000000
 40
0.000000
 40
0.000000
 40
0.000000
 40
0.081832
 40
0.164153
 40
0.246974
 40
1.774289
 40
3.256247
 40
4.783510
 40
6.310758
 40
7.792722
 40
9.320039
 40
10.847340
 40
12.329310
 40
13.856560
 40
14.028395
 40
14.198158
 40
14.366140
 40
14.366140
 40
14.366140
 40
14.366140
 10
39.113812
 20
499.311882
 30
0.0
 10
39.111775
 20
499.339084
 30
0.0
 10
39.107689
 20
499.393651
 30
0.0
 10
39.104330
 20
499.475932
 30
0.0
 10
39.095939
 20
500.039845
 30
0.0
 10
39.378035
 20
501.090595
 30
0.0
 10
40.495018
 20
502.204391
 30
0.0
 10
42.024503
 20
502.619086
 30
0.0
 10
43.554003
 20
502.205017
 30
0.0
 10
44.670938
 20
501.088127
 30
0.0
 10
45.085018
 20
499.558575
 30
0.0
 10
44.670335
 20
498.029080
 30
0.0
 10
43.556342
 20
496.912029
 30
0.0
 10
42.475833
 20
496.622088
 30
0.0
 10
41.853391
 20
496.641021
 30
0.0
 10
41.683949
 20
496.655234
 30
0.0
 10
41.572716
 20
496.672776
 30
0.0
 10
41.517393
 20
496.681501
 30
0.0
 11
39.113812
 21
499.311882
 31
0.0
 11
39.108162
 21
499.393519
 31
0.0
 11
39.104692
 21
499.475767
 31
0.0
 11
39.103511
 21
499.558580
 31
0.0
 11
39.502314
 21
501.032909
 31
0.0
 11
40.550229
 21
502.080800
 31
0.0
 11
42.024511
 21
502.479580
 31
0.0
 11
43.498777
 21
502.080800
 31
0.0
 11
44.546699
 21
501.032909
 31
0.0
 11
44.945511
 21
499.558580
 31
0.0
 11
44.546699
 21
498.084267
 31
0.0
 11
43.498777
 21
497.036368
 31
0.0
 11
42.024511
 21
496.637580
 31
0.0
 11
41.852748
 21
496.642577
 31
0.0
 11
41.683628
 21
496.657335
 31
0.0
 11
41.517393
 21
496.681501
 31
0.0
  0
LWPOLYLINE
  5
111
100
AcDbEntity
  8
COVID_face_mask_back_strap_v1
 62
1
100
AcDbPolyline
 90
2
 70
0
 10
25.085604
 20
484.760293
 30
0.0
 10
24.638811
 20
481.378495
 30
0.0
  0
LWPOLYLINE
  5
112
100
AcDbEntity
  8
COVID_face_mask_back_strap_v1
 62
1
100
AcDbPolyline
 90
2
 70
0
 10
41.517393
 20
496.681501
 30
0.0
 10
41.303997
 20
495.066272
 30
0.0
  0
LWPOLYLINE
  5
113
100
AcDbEntity
  8
COVID_face_mask_back_strap_v1
 62
1
100
AcDbPolyline
 90
2
 70
0
 10
39.680302
 20
482.775671
 30
0.0
 10
39.530689
 20
481.643184
 30
0.0
  0
LWPOLYLINE
  5
114
100
AcDbEntity
  8
COVID_face_mask_back_strap_v1
 62
1
100
AcDbPolyline
 90
2
 70
0
 10
39.113812
 20
499.311882
 30
0.0
 10
38.608105
 20
495.484173
 30
0.0
  0
SPLINE
  5
115
100
AcDbEntity
  8
COVID_face_mask_back_strap_v1
 62
1
100
AcDbSpline
 70
0
 71
3
 72
19
 73
15
 74
13
 40
0.000000
 40
0.000000
 40
0.000000
 40
0.000000
 40
1.419851
 40
2.811342
 40
4.248024
 40
5.775323
 40
7.257287
 40
8.784552
 40
10.311802
 40
11.793771
 40
13.321073
 40
13.723583
 40
14.116625
 40
14.503136
 40
14.503136
 40
14.503136
 40
14.503136
 10
39.530689
 20
481.643184
 30
0.0
 10
39.999089
 20
481.525781
 30
0.0
 10
40.926532
 20
481.293320
 30
0.0
 10
41.912170
 20
480.164699
 30
0.0
 10
42.285059
 20
478.709651
 30
0.0
 10
41.879719
 20
477.206844
 30
0.0
 10
40.762675
 20
476.090955
 30
0.0
 10
39.233185
 20
475.676640
 30
0.0
 10
37.703764
 20
476.091274
 30
0.0
 10
36.586523
 20
477.205616
 30
0.0
 10
36.276011
 20
478.363358
 30
0.0
 10
36.330857
 20
479.136476
 30
0.0
 10
36.408104
 20
479.524838
 30
0.0
 10
36.501433
 20
479.767748
 30
0.0
 10
36.547706
 20
479.888185
 30
0.0
 11
39.530689
 21
481.643184
 31
0.0
 11
40.865706
 21
481.159752
 31
0.0
 11
41.801449
 21
480.129882
 31
0.0
 11
42.154192
 21
478.737177
 31
0.0
 11
41.755388
 21
477.262864
 31
0.0
 11
40.707474
 21
476.214965
 31
0.0
 11
39.233192
 21
475.816177
 31
0.0
 11
37.758926
 21
476.214965
 31
0.0
 11
36.711003
 21
477.262864
 31
0.0
 11
36.312192
 21
478.737177
 31
0.0
 11
36.339580
 21
479.138755
 31
0.0
 11
36.419306
 21
479.523626
 31
0.0
 11
36.547706
 21
479.888185
 31
0.0
  0
SPLINE
  5
116
100
AcDbEntity
  8
COVID_face_mask_back_strap_v1
 62
1
100
AcDbSpline
 70
0
 71
3
 72
22
 73
18
 74
16
 40
0.000000
 40
0.000000
 40
0.000000
 40
0.000000
 40
0.081863
 40
0.164234
 40
0.247082
 40
1.774397
 40
3.256355
 40
4.783618
 40
6.310866
 40
7.792830
 40
9.320146
 40
10.847448
 40
12.329417
 40
13.856667
 40
14.028506
 40
14.198297
 40
14.366353
 40
14.366353
 40
14.366353
 40
14.366353
 10
160.927482
 20
504.007072
 30
0.0
 10
160.929540
 20
504.034283
 30
0.0
 10
160.933670
 20
504.088874
 30
0.0
 10
160.936981
 20
504.171193
 30
0.0
 10
160.945243
 20
504.735131
 30
0.0
 10
160.663308
 20
505.785891
 30
0.0
 10
159.546262
 20
506.899686
 30
0.0
 10
158.016794
 20
507.314382
 30
0.0
 10
156.487289
 20
506.900312
 30
0.0
 10
155.370356
 20
505.783423
 30
0.0
 10
154.956275
 20
504.253871
 30
0.0
 10
155.370958
 20
502.724375
 30
0.0
 10
156.484952
 20
501.607324
 30
0.0
 10
157.565462
 20
501.317384
 30
0.0
 10
158.187914
 20
501.336317
 30
0.0
 10
158.357390
 20
501.350533
 30
0.0
 10
158.468658
 20
501.368072
 30
0.0
 10
158.524007
 20
501.376796
 30
0.0
 11
160.927482
 21
504.007072
 31
0.0
 11
160.933178
 21
504.088736
 31
0.0
 11
160.936625
 21
504.171035
 31
0.0
 11
160.937783
 21
504.253875
 31
0.0
 11
160.538979
 21
505.728204
 31
0.0
 11
159.491065
 21
506.776095
 31
0.0
 11
158.016783
 21
507.174875
 31
0.0
 11
156.542517
 21
506.776095
 31
0.0
 11
155.494594
 21
505.728204
 31
0.0
 11
155.095783
 21
504.253875
 31
0.0
 11
155.494594
 21
502.779562
 31
0.0
 11
156.542517
 21
501.731663
 31
0.0
 11
158.016783
 21
501.332876
 31
0.0
 11
158.188549
 21
501.337873
 31
0.0
 11
158.357697
 21
501.352631
 31
0.0
 11
158.524007
 21
501.376796
 31
0.0
  0
LWPOLYLINE
  5
117
100
AcDbEntity
  8
COVID_face_mask_back_strap_v1
 62
1
100
AcDbPolyline
 90
2
 70
0
 10
36.984410
 20
483.193572
 30
0.0
 10
36.547706
 20
479.888185
 30
0.0
  0
LWPOLYLINE
  5
118
100
AcDbEntity
  8
COVID_face_mask_back_strap_v1
 62
1
100
AcDbPolyline
 90
2
 70
0
 10
158.524007
 20
501.376796
 30
0.0
 10
158.735003
 20
499.779383
 30
0.0
  0
LWPOLYLINE
  5
119
100
AcDbEntity
  8
COVID_face_mask_back_strap_v1
 62
1
100
AcDbPolyline
 90
2
 70
0
 10
160.358698
 20
487.488888
 30
0.0
 10
160.510710
 20
486.338480
 30
0.0
  0
SPLINE
  5
11a
100
AcDbEntity
  8
COVID_face_mask_back_strap_v1
 62
1
100
AcDbSpline
 70
0
 71
3
 72
19
 73
15
 74
13
 40
0.000000
 40
0.000000
 40
0.000000
 40
0.000000
 40
1.419871
 40
2.811402
 40
4.248098
 40
5.775398
 40
7.257362
 40
8.784627
 40
10.311877
 40
11.793846
 40
13.321148
 40
13.723631
 40
14.116623
 40
14.503107
 40
14.503107
 40
14.503107
 40
14.503107
 10
160.510710
 20
486.338480
 30
0.0
 10
160.042302
 20
486.221082
 30
0.0
 10
159.114837
 20
485.988629
 30
0.0
 10
158.129153
 20
484.860015
 30
0.0
 10
157.756226
 20
483.404952
 30
0.0
 10
158.161576
 20
481.902140
 30
0.0
 10
159.278618
 20
480.786251
 30
0.0
 10
160.808108
 20
480.371935
 30
0.0
 10
162.337530
 20
480.786570
 30
0.0
 10
163.454770
 20
481.900912
 30
0.0
 10
163.765280
 20
483.058644
 30
0.0
 10
163.710439
 20
483.831737
 30
0.0
 10
163.633185
 20
484.220062
 30
0.0
 10
163.539860
 20
484.462947
 30
0.0
 10
163.493587
 20
484.583375
 30
0.0
 11
160.510710
 21
486.338480
 31
0.0
 11
159.175666
 21
485.855063
 31
0.0
 11
158.239872
 21
484.825186
 31
0.0
 11
157.887102
 21
483.432473
 31
0.0
 11
158.285905
 21
481.958160
 31
0.0
 11
159.333820
 21
480.910261
 31
0.0
 11
160.808102
 21
480.511473
 31
0.0
 11
162.282368
 21
480.910261
 31
0.0
 11
163.330290
 21
481.958160
 31
0.0
 11
163.729101
 21
483.432473
 31
0.0
 11
163.701713
 21
483.834023
 31
0.0
 11
163.621988
 21
484.218843
 31
0.0
 11
163.493587
 21
484.583375
 31
0.0
  0
SPLINE
  5
11b
100
AcDbEntity
  8
COVID_face_mask_back_strap_v1
 62
1
100
AcDbSpline
 70
0
 71
3
 72
22
 73
18
 74
16
 40
0.000000
 40
0.000000
 40
0.000000
 40
0.000000
 40
0.081670
 40
0.163900
 40
0.246654
 40
1.773971
 40
3.255935
 40
4.783183
 40
6.310446
 40
7.792404
 40
9.319719
 40
10.847018
 40
12.328982
 40
13.856247
 40
14.028085
 40
14.197890
 40
14.365898
 40
14.365898
 40
14.365898
 40
14.365898
 10
149.101383
 20
502.359000
 30
0.0
 10
149.103415
 20
502.386149
 30
0.0
 10
149.107495
 20
502.440632
 30
0.0
 10
149.110807
 20
502.522808
 30
0.0
 10
149.119108
 20
503.086669
 30
0.0
 10
148.837111
 20
504.137398
 30
0.0
 10
147.720087
 20
505.251185
 30
0.0
 10
146.190614
 20
505.665887
 30
0.0
 10
144.661109
 20
505.251823
 30
0.0
 10
143.544177
 20
504.134926
 30
0.0
 10
143.130111
 20
502.605375
 30
0.0
 10
143.544779
 20
501.075882
 30
0.0
 10
144.658771
 20
499.958823
 30
0.0
 10
145.739288
 20
499.668885
 30
0.0
 10
146.361749
 20
499.687823
 30
0.0
 10
146.531214
 20
499.702033
 30
0.0
 10
146.642470
 20
499.719576
 30
0.0
 10
146.697802
 20
499.728301
 30
0.0
 11
149.101383
 21
502.359000
 31
0.0
 11
149.107014
 21
502.440476
 31
0.0
 11
149.110451
 21
502.522634
 31
0.0
 11
149.111613
 21
502.605380
 31
0.0
 11
148.712802
 21
504.079709
 31
0.0
 11
147.664880
 21
505.127600
 31
0.0
 11
146.190614
 21
505.526380
 31
0.0
 11
144.716332
 21
505.127600
 31
0.0
 11
143.668417
 21
504.079709
 31
0.0
 11
143.269614
 21
502.605380
 31
0.0
 11
143.668417
 21
501.131067
 31
0.0
 11
144.716332
 21
500.083168
 31
0.0
 11
146.190614
 21
499.684380
 31
0.0
 11
146.362378
 21
499.689378
 31
0.0
 11
146.531541
 21
499.704136
 31
0.0
 11
146.697802
 21
499.728301
 31
0.0
  0
LWPOLYLINE
  5
11c
100
AcDbEntity
  8
COVID_face_mask_back_strap_v1
 62
1
100
AcDbPolyline
 90
2
 70
0
 10
160.927482
 20
504.007072
 30
0.0
 10
163.493587
 20
484.583375
 30
0.0
  0
LWPOLYLINE
  5
11d
100
AcDbEntity
  8
COVID_face_mask_back_strap_v1
 62
1
100
AcDbPolyline
 90
2
 70
0
 10
146.697802
 20
499.728301
 30
0.0
 10
146.896980
 20
498.220599
 30
0.0
  0
LWPOLYLINE
  5
11e
100
AcDbEntity
  8
COVID_face_mask_back_strap_v1
 62
1
100
AcDbPolyline
 90
2
 70
0
 10
148.520711
 20
485.930104
 30
0.0
 10
148.684505
 20
484.689985
 30
0.0
  0
LWPOLYLINE
  5
11f
100
AcDbEntity
  8
COVID_face_mask_back_strap_v1
 62
1
100
AcDbPolyline
 90
2
 70
0
 10
149.101383
 20
502.359000
 30
0.0
 10
149.596612
 20
498.610172
 30
0.0
  0
SPLINE
  5
120
100
AcDbEntity
  8
COVID_face_mask_back_strap_v1
 62
1
100
AcDbSpline
 70
0
 71
3
 72
19
 73
15
 74
13
 40
0.000000
 40
0.000000
 40
0.000000
 40
0.000000
 40
1.419877
 40
2.811402
 40
4.248090
 40
5.775390
 40
7.257354
 40
8.784619
 40
10.311869
 40
11.793838
 40
13.321140
 40
13.723593
 40
14.116594
 40
14.502977
 40
14.502977
 40
14.502977
 40
14.502977
 10
148.684505
 20
484.689985
 30
0.0
 10
148.216099
 20
484.572580
 30
0.0
 10
147.288638
 20
484.340116
 30
0.0
 10
146.302948
 20
483.211515
 30
0.0
 10
145.930022
 20
481.756453
 30
0.0
 10
146.335372
 20
480.253644
 30
0.0
 10
147.452413
 20
479.137756
 30
0.0
 10
148.981904
 20
478.723440
 30
0.0
 10
150.511324
 20
479.138075
 30
0.0
 10
151.628571
 20
480.252416
 30
0.0
 10
151.939060
 20
481.410141
 30
0.0
 10
151.884248
 20
482.183224
 30
0.0
 10
151.807085
 20
482.571528
 30
0.0
 10
151.713757
 20
482.814379
 30
0.0
 10
151.667488
 20
482.934774
 30
0.0
 11
148.684505
 21
484.689985
 31
0.0
 11
147.349461
 21
484.206552
 31
0.0
 11
146.413667
 21
483.176683
 31
0.0
 11
146.060897
 21
481.783978
 31
0.0
 11
146.459701
 21
480.309665
 31
0.0
 11
147.507615
 21
479.261766
 31
0.0
 11
148.981897
 21
478.862978
 31
0.0
 11
150.456163
 21
479.261766
 31
0.0
 11
151.504086
 21
480.309665
 31
0.0
 11
151.902897
 21
481.783978
 31
0.0
 11
151.875536
 21
482.185500
 31
0.0
 11
151.795862
 21
482.570340
 31
0.0
 11
151.667488
 21
482.934774
 31
0.0
  0
SPLINE
  5
121
100
AcDbEntity
  8
COVID_face_mask_back_strap_v1
 62
1
100
AcDbSpline
 70
0
 71
3
 72
22
 73
18
 74
16
 40
0.000000
 40
0.000000
 40
0.000000
 40
0.000000
 40
0.081808
 40
0.164130
 40
0.246974
 40
1.774274
 40
3.256238
 40
4.783503
 40
6.310753
 40
7.792722
 40
9.320024
 40
10.847340
 40
12.329304
 40
13.856552
 40
14.028415
 40
14.198228
 40
14.366234
 40
14.366234
 40
14.366234
 40
14.366234
 10
137.192487
 20
500.802404
 30
0.0
 10
137.194524
 20
500.829598
 30
0.0
 10
137.198611
 20
500.884157
 30
0.0
 10
137.201969
 20
500.966438
 30
0.0
 10
137.210359
 20
501.530354
 30
0.0
 10
136.928259
 20
502.581105
 30
0.0
 10
135.811283
 20
503.694902
 30
0.0
 10
134.281796
 20
504.109613
 30
0.0
 10
132.752294
 20
503.695528
 30
0.0
 10
131.635367
 20
502.578637
 30
0.0
 10
131.221281
 20
501.049087
 30
0.0
 10
131.635959
 20
499.519590
 30
0.0
 10
132.749959
 20
498.402540
 30
0.0
 10
133.830477
 20
498.112608
 30
0.0
 10
134.452943
 20
498.131544
 30
0.0
 10
134.622419
 20
498.145746
 30
0.0
 10
134.733680
 20
498.163271
 30
0.0
 10
134.789012
 20
498.171987
 30
0.0
 11
137.192487
 21
500.802404
 31
0.0
 11
137.198137
 21
500.884017
 31
0.0
 11
137.201607
 21
500.966265
 31
0.0
 11
137.202789
 21
501.049101
 31
0.0
 11
136.803985
 21
502.523414
 31
0.0
 11
135.756070
 21
503.571313
 31
0.0
 11
134.281789
 21
503.970101
 31
0.0
 11
132.807522
 21
503.571313
 31
0.0
 11
131.759600
 21
502.523414
 31
0.0
 11
131.360789
 21
501.049101
 31
0.0
 11
131.759600
 21
499.574772
 31
0.0
 11
132.807522
 21
498.526881
 31
0.0
 11
134.281789
 21
498.128101
 31
0.0
 11
134.453578
 21
498.133098
 31
0.0
 11
134.622750
 21
498.147846
 31
0.0
 11
134.789012
 21
498.171987
 31
0.0
  0
LWPOLYLINE
  5
122
100
AcDbEntity
  8
COVID_face_mask_back_strap_v1
 62
1
100
AcDbPolyline
 90
2
 70
0
 10
151.220307
 20
486.319677
 30
0.0
 10
151.667488
 20
482.934774
 30
0.0
  0
LWPOLYLINE
  5
123
100
AcDbEntity
  8
COVID_face_mask_back_strap_v1
 62
1
100
AcDbPolyline
 90
2
 70
0
 10
134.789012
 20
498.171987
 30
0.0
 10
134.989708
 20
496.652785
 30
0.0
  0
LWPOLYLINE
  5
124
100
AcDbEntity
  8
COVID_face_mask_back_strap_v1
 62
1
100
AcDbPolyline
 90
2
 70
0
 10
136.613403
 20
484.362289
 30
0.0
 10
136.775680
 20
483.133705
 30
0.0
  0
LWPOLYLINE
  5
125
100
AcDbEntity
  8
COVID_face_mask_back_strap_v1
 62
1
100
AcDbPolyline
 90
2
 70
0
 10
137.192487
 20
500.802404
 30
0.0
 10
137.689304
 20
497.042392
 30
0.0
  0
SPLINE
  5
126
100
AcDbEntity
  8
COVID_face_mask_back_strap_v1
 62
1
100
AcDbSpline
 70
0
 71
3
 72
19
 73
15
 74
13
 40
0.000000
 40
0.000000
 40
0.000000
 40
0.000000
 40
1.419840
 40
2.811382
 40
4.248078
 40
5.775393
 40
7.257351
 40
8.784614
 40
10.311862
 40
11.793826
 40
13.321142
 40
13.723581
 40
14.116591
 40
14.502976
 40
14.502976
 40
14.502976
 40
14.502976
 10
136.775680
 20
483.133705
 30
0.0
 10
136.307280
 20
483.016317
 30
0.0
 10
135.379814
 20
482.783879
 30
0.0
 10
134.394165
 20
481.655238
 30
0.0
 10
134.021232
 20
480.200175
 30
0.0
 10
134.426576
 20
478.697354
 30
0.0
 10
135.543626
 20
477.581467
 30
0.0
 10
137.073114
 20
477.167166
 30
0.0
 10
138.602533
 20
477.581786
 30
0.0
 10
139.719784
 20
478.696126
 30
0.0
 10
140.030279
 20
479.853852
 30
0.0
 10
139.975451
 20
480.626937
 30
0.0
 10
139.898275
 20
481.015237
 30
0.0
 10
139.804960
 20
481.258097
 30
0.0
 10
139.758699
 20
481.378495
 30
0.0
 11
136.775680
 21
483.133705
 31
0.0
 11
135.440661
 21
482.650312
 31
0.0
 11
134.504876
 21
481.620412
 31
0.0
 11
134.152107
 21
480.227699
 31
0.0
 11
134.550911
 21
478.753370
 31
0.0
 11
135.598826
 21
477.705479
 31
0.0
 11
137.073107
 21
477.306699
 31
0.0
 11
138.547374
 21
477.705479
 31
0.0
 11
139.595296
 21
478.753370
 31
0.0
 11
139.994107
 21
480.227699
 31
0.0
 11
139.966738
 21
480.629205
 31
0.0
 11
139.887056
 21
481.014053
 31
0.0
 11
139.758699
 21
481.378495
 31
0.0
  0
SPLINE
  5
127
100
AcDbEntity
  8
COVID_face_mask_back_strap_v1
 62
1
100
AcDbSpline
 70
0
 71
3
 72
22
 73
18
 74
16
 40
0.000000
 40
0.000000
 40
0.000000
 40
0.000000
 40
0.081670
 40
0.163899
 40
0.246653
 40
1.773970
 40
3.255933
 40
4.783181
 40
6.310444
 40
7.792403
 40
9.319717
 40
10.847017
 40
12.328981
 40
13.856246
 40
14.028083
 40
14.197865
 40
14.365896
 40
14.365896
 40
14.365896
 40
14.365896
 10
125.283804
 20
499.312200
 30
0.0
 10
125.285834
 20
499.339348
 30
0.0
 10
125.289908
 20
499.393831
 30
0.0
 10
125.293199
 20
499.476008
 30
0.0
 10
125.301454
 20
500.039868
 30
0.0
 10
125.019513
 20
501.090597
 30
0.0
 10
123.902467
 20
502.204385
 30
0.0
 10
122.373001
 20
502.619086
 30
0.0
 10
120.843494
 20
502.205022
 30
0.0
 10
119.726562
 20
501.088125
 30
0.0
 10
119.312496
 20
499.558575
 30
0.0
 10
119.727165
 20
498.029082
 30
0.0
 10
120.841157
 20
496.912021
 30
0.0
 10
121.921673
 20
496.622088
 30
0.0
 10
122.544126
 20
496.641022
 30
0.0
 10
122.713591
 20
496.655236
 30
0.0
 10
122.824847
 20
496.672776
 30
0.0
 10
122.880187
 20
496.681501
 30
0.0
 11
125.283804
 21
499.312200
 31
0.0
 11
125.289426
 21
499.393676
 31
0.0
 11
125.292845
 21
499.475834
 31
0.0
 11
125.293999
 21
499.558580
 31
0.0
 11
124.895187
 21
501.032909
 31
0.0
 11
123.847265
 21
502.080800
 31
0.0
 11
122.372999
 21
502.479580
 31
0.0
 11
120.898717
 21
502.080800
 31
0.0
 11
119.850802
 21
501.032909
 31
0.0
 11
119.451999
 21
499.558580
 31
0.0
 11
119.850802
 21
498.084267
 31
0.0
 11
120.898717
 21
497.036368
 31
0.0
 11
122.372999
 21
496.637580
 31
0.0
 11
122.544764
 21
496.642577
 31
0.0
 11
122.713902
 21
496.657335
 31
0.0
 11
122.880187
 21
496.681501
 31
0.0
  0
LWPOLYLINE
  5
128
100
AcDbEntity
  8
COVID_face_mask_back_strap_v1
 62
1
100
AcDbPolyline
 90
2
 70
0
 10
139.312999
 20
484.751897
 30
0.0
 10
139.758699
 20
481.378495
 30
0.0
  0
LWPOLYLINE
  5
129
100
AcDbEntity
  8
COVID_face_mask_back_strap_v1
 62
1
100
AcDbPolyline
 90
2
 70
0
 10
122.880187
 20
496.681501
 30
0.0
 10
123.092983
 20
495.070576
 30
0.0
  0
LWPOLYLINE
  5
12a
100
AcDbEntity
  8
COVID_face_mask_back_strap_v1
 62
1
100
AcDbPolyline
 90
2
 70
0
 10
124.716713
 20
482.780187
 30
0.0
 10
124.866891
 20
481.643184
 30
0.0
  0
LWPOLYLINE
  5
12b
100
AcDbEntity
  8
COVID_face_mask_back_strap_v1
 62
1
100
AcDbPolyline
 90
2
 70
0
 10
125.283804
 20
499.312200
 30
0.0
 10
125.790604
 20
495.475671
 30
0.0
  0
SPLINE
  5
12c
100
AcDbEntity
  8
COVID_face_mask_back_strap_v1
 62
1
100
AcDbSpline
 70
0
 71
3
 72
19
 73
15
 74
13
 40
0.000000
 40
0.000000
 40
0.000000
 40
0.000000
 40
1.419862
 40
2.811392
 40
4.248083
 40
5.775384
 40
7.257354
 40
8.784604
 40
10.311869
 40
11.793833
 40
13.321132
 40
13.723586
 40
14.116585
 40
14.502960
 40
14.502960
 40
14.502960
 40
14.502960
 10
124.866891
 20
481.643184
 30
0.0
 10
124.398490
 20
481.525778
 30
0.0
 10
123.471035
 20
481.293309
 30
0.0
 10
122.485343
 20
480.164717
 30
0.0
 10
122.112403
 20
478.709653
 30
0.0
 10
122.517767
 20
477.206842
 30
0.0
 10
123.634809
 20
476.090961
 30
0.0
 10
125.164299
 20
475.676640
 30
0.0
 10
126.693720
 20
476.091269
 30
0.0
 10
127.810966
 20
477.205617
 30
0.0
 10
128.121444
 20
478.363341
 30
0.0
 10
128.066634
 20
479.136422
 30
0.0
 10
127.989478
 20
479.524724
 30
0.0
 10
127.896168
 20
479.767578
 30
0.0
 10
127.849909
 20
479.887974
 30
0.0
 11
124.866891
 21
481.643184
 31
0.0
 11
123.531862
 21
481.159752
 31
0.0
 11
122.596060
 21
480.129882
 31
0.0
 11
122.243282
 21
478.737177
 31
0.0
 11
122.642094
 21
477.262864
 31
0.0
 11
123.690016
 21
476.214965
 31
0.0
 11
125.164282
 21
475.816177
 31
0.0
 11
126.638564
 21
476.214965
 31
0.0
 11
127.686479
 21
477.262864
 31
0.0
 11
128.085282
 21
478.737177
 31
0.0
 11
128.057922
 21
479.138700
 31
0.0
 11
127.978257
 21
479.523540
 31
0.0
 11
127.849909
 21
479.887974
 31
0.0
  0
SPLINE
  5
12d
100
AcDbEntity
  8
COVID_face_mask_back_strap_v1
 62
1
100
AcDbSpline
 70
0
 71
3
 72
10
 73
6
 74
4
 40
0.000000
 40
0.000000
 40
0.000000
 40
0.000000
 40
1.376346
 40
2.662433
 40
4.119572
 40
4.119572
 40
4.119572
 40
4.119572
 10
60.576106
 20
477.552585
 30
0.0
 10
60.803102
 20
477.145917
 30
0.0
 10
61.242209
 20
476.359252
 30
0.0
 10
62.510153
 20
475.650576
 30
0.0
 10
63.434103
 20
475.641319
 30
0.0
 10
63.924884
 20
475.636402
 30
0.0
 11
60.576106
 21
477.552585
 31
0.0
 11
61.358739
 21
476.420412
 31
0.0
 11
62.475007
 21
475.781690
 31
0.0
 11
63.924884
 21
475.636402
 31
0.0
  0
LWPOLYLINE
  5
12e
100
AcDbEntity
  8
COVID_face_mask_back_strap_v1
 62
1
100
AcDbPolyline
 90
2
 70
0
 10
127.414299
 20
483.185176
 30
0.0
 10
127.849909
 20
479.887974
 30
0.0
  0
LWPOLYLINE
  5
12f
100
AcDbEntity
  8
COVID_face_mask_back_strap_v1
 62
1
100
AcDbPolyline
 90
2
 70
0
 10
5.663706
 20
499.787991
 30
0.0
 10
14.802097
 20
498.618603
 30
0.0
  0
LWPOLYLINE
  5
130
100
AcDbEntity
  8
COVID_face_mask_back_strap_v1
 62
1
100
AcDbPolyline
 90
2
 70
0
 10
17.501693
 20
498.229101
 30
0.0
 10
26.709405
 20
497.050894
 30
0.0
  0
LWPOLYLINE
  5
131
100
AcDbEntity
  8
COVID_face_mask_back_strap_v1
 62
1
100
AcDbPolyline
 90
2
 70
0
 10
29.409001
 20
496.661286
 30
0.0
 10
38.608105
 20
495.484173
 30
0.0
  0
LWPOLYLINE
  5
132
100
AcDbEntity
  8
COVID_face_mask_back_strap_v1
 62
1
100
AcDbPolyline
 90
2
 70
0
 10
41.303997
 20
495.066272
 30
0.0
 10
57.012803
 20
493.056180
 30
0.0
  0
LWPOLYLINE
  5
133
100
AcDbEntity
  8
COVID_face_mask_back_strap_v1
 62
1
100
AcDbPolyline
 90
2
 70
0
 10
4.039905
 20
487.497390
 30
0.0
 10
13.178402
 20
486.328073
 30
0.0
  0
LWPOLYLINE
  5
134
100
AcDbEntity
  8
COVID_face_mask_back_strap_v1
 62
1
100
AcDbPolyline
 90
2
 70
0
 10
15.877998
 20
485.938571
 30
0.0
 10
25.085604
 20
484.760293
 30
0.0
  0
LWPOLYLINE
  5
135
100
AcDbEntity
  8
COVID_face_mask_back_strap_v1
 62
1
100
AcDbPolyline
 90
2
 70
0
 10
27.785306
 20
484.370791
 30
0.0
 10
36.984410
 20
483.193572
 30
0.0
  0
LWPOLYLINE
  5
136
100
AcDbEntity
  8
COVID_face_mask_back_strap_v1
 62
1
100
AcDbPolyline
 90
2
 70
0
 10
39.680302
 20
482.775671
 30
0.0
 10
59.454202
 20
480.245479
 30
0.0
  0
LWPOLYLINE
  5
137
100
AcDbEntity
  8
COVID_face_mask_back_strap_v1
 62
1
100
AcDbPolyline
 90
2
 70
0
 10
60.576106
 20
477.552585
 30
0.0
 10
59.454202
 20
480.245479
 30
0.0
  0
LWPOLYLINE
  5
138
100
AcDbEntity
  8
COVID_face_mask_back_strap_v1
 62
1
100
AcDbPolyline
 90
2
 70
0
 10
59.342583
 20
494.940401
 30
0.0
 10
105.020284
 20
494.940401
 30
0.0
  0
SPLINE
  5
139
100
AcDbEntity
  8
COVID_face_mask_back_strap_v1
 62
1
100
AcDbSpline
 70
0
 71
3
 72
10
 73
6
 74
4
 40
0.000000
 40
0.000000
 40
0.000000
 40
0.000000
 40
1.043477
 40
2.046253
 40
3.423880
 40
3.423880
 40
3.423880
 40
3.423880
 10
57.014285
 20
493.035401
 30
0.0
 10
57.029186
 20
493.400655
 30
0.0
 10
57.058408
 20
494.116916
 30
0.0
 10
58.084455
 20
494.858769
 30
0.0
 10
58.881376
 20
494.910476
 30
0.0
 10
59.342583
 20
494.940401
 30
0.0
 11
57.014285
 21
493.035401
 31
0.0
 11
57.210851
 21
494.060197
 31
0.0
 11
57.986953
 21
494.695197
 31
0.0
 11
59.342583
 21
494.940401
 31
0.0
  0
SPLINE
  5
13a
100
AcDbEntity
  8
COVID_face_mask_back_strap_v1
 62
1
100
AcDbSpline
 70
0
 71
3
 72
10
 73
6
 74
4
 40
0.000000
 40
0.000000
 40
0.000000
 40
0.000000
 40
1.376347
 40
2.662442
 40
4.119605
 40
4.119605
 40
4.119605
 40
4.119605
 10
103.786796
 20
477.552585
 30
0.0
 10
103.559800
 20
477.145917
 30
0.0
 10
103.120691
 20
476.359249
 30
0.0
 10
101.852733
 20
475.650575
 30
0.0
 10
100.928772
 20
475.641318
 30
0.0
 10
100.437983
 20
475.636402
 30
0.0
 11
103.786796
 21
477.552585
 31
0.0
 11
103.004161
 21
476.420412
 31
0.0
 11
101.887885
 21
475.781690
 31
0.0
 11
100.437983
 21
475.636402
 31
0.0
  0
LWPOLYLINE
  5
13b
100
AcDbEntity
  8
COVID_face_mask_back_strap_v1
 62
1
100
AcDbPolyline
 90
2
 70
0
 10
63.924884
 20
475.636402
 30
0.0
 10
100.998582
 20
475.636402
 30
0.0
  0
LWPOLYLINE
  5
13c
100
AcDbEntity
  8
COVID_face_mask_back_strap_v1
 62
1
100
AcDbPolyline
 90
2
 70
0
 10
123.092983
 20
495.070576
 30
0.0
 10
107.350099
 20
493.056180
 30
0.0
  0
LWPOLYLINE
  5
13d
100
AcDbEntity
  8
COVID_face_mask_back_strap_v1
 62
1
100
AcDbPolyline
 90
2
 70
0
 10
124.716713
 20
482.780187
 30
0.0
 10
104.908700
 20
480.245373
 30
0.0
  0
LWPOLYLINE
  5
13e
100
AcDbEntity
  8
COVID_face_mask_back_strap_v1
 62
1
100
AcDbPolyline
 90
2
 70
0
 10
103.786796
 20
477.552585
 30
0.0
 10
104.908700
 20
480.245373
 30
0.0
  0
LWPOLYLINE
  5
13f
100
AcDbEntity
  8
COVID_face_mask_back_strap_v1
 62
1
100
AcDbPolyline
 90
2
 70
0
 10
158.735003
 20
499.779383
 30
0.0
 10
149.596612
 20
498.610172
 30
0.0
  0
LWPOLYLINE
  5
140
100
AcDbEntity
  8
COVID_face_mask_back_strap_v1
 62
1
100
AcDbPolyline
 90
2
 70
0
 10
146.896980
 20
498.220599
 30
0.0
 10
137.689304
 20
497.042392
 30
0.0
  0
LWPOLYLINE
  5
141
100
AcDbEntity
  8
COVID_face_mask_back_strap_v1
 62
1
100
AcDbPolyline
 90
2
 70
0
 10
134.989708
 20
496.652890
 30
0.0
 10
125.790604
 20
495.475671
 30
0.0
  0
LWPOLYLINE
  5
142
100
AcDbEntity
  8
COVID_face_mask_back_strap_v1
 62
1
100
AcDbPolyline
 90
2
 70
0
 10
160.358698
 20
487.488888
 30
0.0
 10
151.220307
 20
486.319677
 30
0.0
  0
LWPOLYLINE
  5
143
100
AcDbEntity
  8
COVID_face_mask_back_strap_v1
 62
1
100
AcDbPolyline
 90
2
 70
0
 10
148.520711
 20
485.930104
 30
0.0
 10
139.312999
 20
484.751897
 30
0.0
  0
SPLINE
  5
144
100
AcDbEntity
  8
COVID_face_mask_back_strap_v1
 62
1
100
AcDbSpline
 70
0
 71
3
 72
10
 73
6
 74
4
 40
0.000000
 40
0.000000
 40
0.000000
 40
0.000000
 40
1.043476
 40
2.046246
 40
3.423888
 40
3.423888
 40
3.423888
 40
3.423888
 10
107.348582
 20
493.035401
 30
0.0
 10
107.333683
 20
493.400655
 30
0.0
 10
107.304468
 20
494.116914
 30
0.0
 10
106.278422
 20
494.858774
 30
0.0
 10
105.481497
 20
494.910478
 30
0.0
 10
105.020284
 20
494.940401
 30
0.0
 11
107.348582
 21
493.035401
 31
0.0
 11
107.152023
 21
494.060197
 31
0.0
 11
106.375929
 21
494.695197
 31
0.0
 11
105.020284
 21
494.940401
 31
0.0
  0
LWPOLYLINE
  5
145
100
AcDbEntity
  8
COVID_face_mask_back_strap_v1
 62
1
100
AcDbPolyline
 90
2
 70
0
 10
136.613403
 20
484.362289
 30
0.0
 10
127.414299
 20
483.185176
 30
0.0
  0
ENDSEC
  0
SECTION
  2
OBJECTS
  0
DICTIONARY
  5
C
330
0
100
AcDbDictionary
  3
ACAD_GROUP
350
D
  3
ACAD_MLINESTYLE
350
17
  0
DICTIONARY
  5
D
330
C
100
AcDbDictionary
  0
DICTIONARY
  5
1A
330
C
100
AcDbDictionary
  0
DICTIONARY
  5
17
330
C
100
AcDbDictionary
  3
STANDARD
350
18
  0
DICTIONARY
  5
19
330
C
100
AcDbDictionary
  0
ENDSEC
  0
EOF
